...:::wWw.GocmenkoliK.coM:::...
 
*
Hoşgeldiniz, Ziyaretçi.Lütfen giriş yapın veya kayıt olun.
E-posta adresinize aktivasyon iletisi gelmediyse lütfen buraya tıklayın.
30 Ağustos 2014, 05:15:46
Turkish Bulgarian Russian English Spanish German


Kullanıcı adınızı, parolanızı ve aktif kalma süresini giriniz


Sayfa: [1]   Aşağı git
  Yazdır  
Gönderen Konu: Yeni Gitar Çalmaya Başlayanlar İçin Basit Tablar  (Okunma Sayısı 54356 defa)
0 Üye ve 1 Ziyaretçi konuyu incelemekte.
sinan9931
Kırcaali
V.I.P Member
*


..::СИНАН::..

Cinsiyet: Bay
Nerden: edirne
Meslek: Satış
Mesaj Sayısı: 2003
Rep Puanı: 283
Turkey Turkey

Çevrimdışı Çevrimdışı


« : 27 Şubat 2012, 11:31:20 »

Yeni Gitar Çalmaya Başlayanlar İçin Basit Tablar


E: en altta ki Mİ teli.
B: Sİ teli
G: SOL teli
D: RE teli
A: LA teli
E: en üstte ki Mİ teli






Haluk Levent - Yollarda Bulurum Seni

E--7-8-7-5-5-5-7-8 / 5-5-7-5-3-3-3-5-7 / 3-3-5-3-2-2-3-5 / 5-3-2-3-2-0-0



Bir Sevmek Bin Defa Ölmek Demekmiş

E------------------------------------------------------------------------------------------------------------------
B------------------------------------------------------------------------------------------------------------------
G----------6-6-10-8-10-10-8-6-5-6-6-6-6-6-6-8-5-5-6-8-6-5-3-5---------------------------------

E------------------------------------------------------------------------------------------------------------------
B------------------------------------------------------------------------------------------------------------------
G--------10-10-8-6-5-3-5-5-6-8-6-5-3-1-1-1-1-1-1-3-0-0-1-3-1-0-------------0------------------
D--------------------------------------------------------------------------------------3--------------------------



Hatırla Sevgili

E------------------------------------------------------------------------------------------------------------------
B------------------------------------------------------------------------------------------------------------------
G-------2---0---------2----------------------2---0--------------------------------------------------------------
D-0-3-----------3--------------------0-3-------------3-2------------------------------------------------------

E------------------------------------------------------------------------------------------------------------------
B------------------------------------------------------------------------------------------------------------------
G-------0-------------------0-------------3------------2-------------0----------------------------------------
D-2-3--------------3-2--------------------------------------2-3----------3-2-0-----------------------------


E-------0-----------------------------------------------------------------------------------------------------
B-2-3------2------------------------------------------------------------------------------------------------
G------------------3--2----------------------------3------3------2----0--------2--------------------------
D------------------------------------------------------------------------------3------------------------------


E---------------------------------------------------------------------------------------------------------------
B---------------------------------------------------------------------------------------------------------------
G--3----3-------2-0-------2------0-----------------------0-------------------------------------------------
D-----------------------3-----------------3-2-0-----2-3--------3------2------0---------------------------



Tarkan / Asla Vazgeçemem


e|---------------------------------------------------------|
B|----1--1-1-0-0---------1-0---0-0-------------0-----------|
G|---------------2-2-0-2-----------2-2-0-0---0---2---------|
D|--2--------------------------------------3---------------|
A|---------------------------------------------------------|
E|---------------------------------------------------------|

e|---------------------------------------------------------|
B|----0-1----------0-1-------------------------------------|
G|--2-------0-2--2---------0-------------------------------|
D|--------3------------2-3---------------------------------|
A|---------------------------------------------------------|
E|---------------------------------------------------------|


Mecburen

e|--3--3--1--0-----3-1-0---11-0------1--0------------5--3---1--1--0----------|
B|---------------------------------------3---------3--111----------------------3--1----|


e|--3-1-0-----3-1-0---1-0-------1-1-0--------------5--3---1--1--0----------|
B|---------------------------------3----------3--1-1-1----------------------3--1----|


Mavi Sakal


E||-0-2-2-0-2-3-2-3-5-3-2-3---------------
B||----------------------------------3-0--
G||---------------------------------------
D||---------------------------------------
A||--------------------------|------------
E||--------------------------|------------





Pinhani -- Hele Bir Gel Tab (Basit Tabı)

e-----8--7--5--5----4--5----5--4--5--7--5--4--5--0------
B-----------------------------------------------------------------
G-----------------------------------------------------------------
D-----------------------------------------------------------------
A-----------------------------------------------------------------
E-----------------------------------------------------------------


e-----8--7--5--5----4--5----5--5--4--5--7--5--4--5------
B-----------------------------------------------------------------
G-----------------------------------------------------------------
D-----------------------------------------------------------------
A-----------------------------------------------------------------
E-----------------------------------------------------------------



Duydum ki Unutmuşsun

e|----------------|------------------|
B|----------------|------------------|
G|--3-4-3-1-------|------------------|
D|---------4-3-1--|---3-4-3-1--------|
A|----------------|-----------4-2-1--|
E|----------------|------------------|

e|-----------------|-----------------|
B|------------4-2--|-----2-----------|
G|--3-4-1-3-4------|--3-4---4-3-1-3--|
D|-----------------|-----------------|
A|-----------------|-----------------|
E|-----------------|-----------------|

e|---------------------|-------------|
B|---------------------|-------------|
G|-3-4-3-1-------------|-------------|
D|---------4-3-1-1-1/4-|---3-4-3-1---|
A|---------------------|-------------|
E|---------------------|-------------|

e|-------------------|---------------|
B|-------------------|---------------|
G|-------------------|---------------|
D|-1-2-1---------1/4-|-3-1-----------|
A|-------4-2-4-1-----|-----4-2-1-2-1-|
E|-------------------|---------------|

e|-------------------|---------------------|
B|-------------------|---------------------|
G|-------------------|---------------------|
D|-3-3/4-4-4-4-3-4-3-|-------3-4-3-1---1---|
A|-------------------|-4-2-1---------4---4-|
E|-------------------|---------------------|

e|---------------------|---------------|
B|---------------------|---------------|
G|---------------------|---------------|
D|-------------1-1-1/4-|-3-1-4---------|
A|-2-2-2-2-1-----------|-------2-1-2-1-|
E|-----------4---------|---------------|



Bariş Manco - Arkadasim Eşşek


e ----0-0--1-1--0------1-1--0-------1-1------0---------------------------------
b-------------------3--3--------3--3-------3------1--------0--0-------1--0-------
g-2--2--------------------------------------------------------------------------2---- x2

e-----------------------------------------------------------------------------
b------0--1-----------------0---1--------------0--1---------------------------
g---2---------2--0-------2--------2--0-------2-------2--0---------2~--------- x2

e ----0-0--1-1--0---- -1-1--0--|-------1-1----0------------------------------
b--------------------3--3---------|-3--3------3-----1------0--0-------1---0------ x2
g-2--2----------------------------|----------------------------------------------2--



Kaç yıl oldu saymadım...........mevsımler

e-5-5--3-3--1-1--0-----1-1--0--|------1-1--0---------------------------------
b----------------------3-3----------|-3-3---------3-----1-----0-0---1-0----------- x2
g------------------------------------|--------------------------------------2------



dun yine seni andım ....... o tatlı günlerimiz

e-----------------------------------------------------------------------------
b-----0--1-------------------0---1-----------------0--1-----------------------
g---2--------2---0---------2-------2--0--------2-----------2--0---------2~----



Güllerin İçinden

MFÖ E:------------------------------------------------|
B:------------------------------------------------|
G:-2---2-2---2-0-2-0-0---0-2-0-------------|
D:------------------------------------------------|
A:------------------------------------------------|
E:------------------------------------------------|



E:------------------------------------------------|
B:------------------------------------------------|
G:-0-----0--0----0--0----0--2----------------|
D:----3-------3---------3--------3---2-3------|
A:------------------------------------------------|
E:------------------------------------------------|



Duman - Bu Akşam

e|----2-0---0-----0-----2-0---0-----00-|
B|--0-----3---2-3---2-0-----3---2-3----|

e|----2-0---0-----0--------------------|
B|--0-----3---2-3---2-0---3-2-0-3-2-00-|

Solo:

e|----2-0---0-----0-----2-0---0-----00-|
B|--0-----3---2-3---2-0-----3---2-3----|

e|----2-0---0-----0--------------------|
B|--0-----3---2-3---2-0---3-2-0-3-2-00-|

e|---54545454545h7-5454545--10-9-7-----|
B|-0-----------------------------------|

e|---54545454545p4-2---2-0---0---------|
B|-0-----------------------3---2-0-0---|



Saman Yolu


Sen kalbimin.... Sen ruhumun....
E--------------------------------------------------I
B-1-3-1-0-1-0-1---0---0----1-3-1-0-1-0-1---0---0---I
G---------------2---2---0----------------2---2---0-I
D--------------------------------------------------I

Bir sarkisin sen.... Dudaklarimdan....
E--------------------------------------------------I
B------------1-3-1-0----0----0-------0-1-----------I
G-0-2-0--------------0-2---2---2-0-------2-0---0---I
D-------3-2------------------------3---------3---2-I


Godfather

e ---------0--3--2--0--3--0--2--0----------------------
b ----0---------------------------------1--3--0----------











Logged

Advertisement Links Advertisement Links

Logged Logged
Sayfa: [1]   Yukarı git
  Yazdır  
Anahtar Kelimeler Yeni Gitar Çalmaya Başlayanlar İçin Basit Tablar Mp3 indir, Yeni Gitar Çalmaya Başlayanlar İçin Basit Tablar Klip indir, Yeni Gitar Çalmaya Başlayanlar İçin Basit Tablar Videosu, Yeni Gitar Çalmaya Başlayanlar İçin Basit Tablar Programi indir

 
Gitmek istediğiniz yer:  


MySQL Kullanıyor PHP Kullanıyor Powered by SMF 1.1.19 | SMF © 2006-2008, Simple Machines

Copyright © 2007 Gocmenkolik.coM ®, All Rights Reserved - Sitemap-2 - Arşiv
XHTML 1.0 Uyumlu! CSS Uyumlu! Dilber MC Theme by HarzeM